陈奕迅

单车吉他谱

歌手:陈奕迅

歌手字母索引:C

地区:华语男歌手 香港

热度:1400

陈奕迅共有 531 首吉他谱

收藏本吉他谱

滚动看谱
关灯看谱
二维码
   单车 - 陈奕迅

   曲:柳重言   词:黄伟文   编:柳重言


   E|----------------3---2^3--2----------------------------------------------------------------------|E
   B|-------3/5--3---0------------3-0--/5-0-------3-----------------------------------------3/5--3---|B
   G|--2/4-----------------------------------2/4-----4---2^3---2---0-----------2/0--2^4--2-----------|G
   D|------------------------------------------------------------------0/2--4------------------------|D
   A|------------------------------------------------------------------------------------------------|A
   E|------------------------------------------------------------------------------------------------|E


 G            D
   不要不要假设我知道
Em          Bm          C
   一切一切也都是为我而做
       G             Am      D7
   为何这麽伟大 如此感觉不到
 G            D
   不说一句的爱有多好?
 Em         Bm          C
   只有一次记得实在接触到...
           G             Am      D7
   骑着单车的我俩 怀紧贴背的拥抱

    G             D      Em          Bm
 * 难离难舍想抱紧些 茫茫人生好像荒野
     C           G         Am   D7
  如孩儿能伏於爸爸的肩膊 谁要下车
     G             D      C   Cm
  难离难舍总有一些 常情如此不可堆卸
     G              Am   C     D7    G
  任世间再冷酷 想起这单车还有幸福可惜
     G              Am   C          D7           G
 (任世间怨我坏 可知我只得你承受我的狂或野)


   Solo
   E|------------------3--5^3--/7--5--3^5^3-0----------------------------3---5^3--/7--5--3^5^3--0-------------------|
   B|-----------3-3/5--------------------------5/3-------------3--3/5------------------------------3--5/3-----------|
   G|-------2/4--------------------------------------4/2-0-2-2/4-------------------------------------------4/2--0---|
   D|-3/5-5---------------------------------------------------------------------------------------------------------|
   A|---------------------------------------------------------------------------------------------------------------|
   E|---------------------------------------------------------------------------------------------------------------|


 G            D
   经已给我怎会看不到
 Em        Bm          C
   虽说演你角色实在有难度
       G             Am      D7
   从来虚位以待 何不给个拥抱?
 G            D
   想我怎去相信这一套
 Em         Bm          C
   多疼惜我却不便让我知道
           G             Am          D7
   怀念单车给你我 唯一有过的拥抱

   G             D       Em         Bm
   难离难舍想抱紧些 茫茫人生好像荒野
   C           G
   如孩儿能伏於爸爸的肩膊
   Am       D7
   哪怕遥遥长路多斜

 Eb    F     Eb            F
   你爱我爱多些 让我他朝走得坚壮些
 Dm             Gm            Cm     D
   你介意来爱护 又靠谁施舍
   Repeat *


   By 

提醒:该吉他谱已全部加载完成。